  0
SECTION
  2
ENTITIES
  0
LINE
  8
0
 62
     5
 10
3581.127591
 20
1546.769036
 30
0.0
 11
3579.535048
 21
1527.303201
 31
0.0
  0
LINE
  8
0
 62
     5
 10
3582.605193
 20
1591.665285
 30
0.0
 11
3581.127591
 21
1546.769036
 31
0.0
  0
LINE
  8
0
 62
     5
 10
3581.803066
 20
1638.943912
 30
0.0
 11
3582.605193
 21
1591.665285
 31
0.0
  0
LINE
  8
0
 62
     5
 10
3578.576968
 20
1688.72439
 30
0.0
 11
3581.803066
 21
1638.943912
 31
0.0
  0
LINE
  8
0
 62
     5
 10
3573.218902
 20
1740.339088
 30
0.0
 11
3578.576968
 21
1688.72439
 31
0.0
  0
LINE
  8
0
 62
     5
 10
3566.12993
 20
1792.923604
 30
0.0
 11
3573.218902
 21
1740.339088
 31
0.0
  0
LINE
  8
0
 62
     5
 10
3557.711116
 20
1845.613535
 30
0.0
 11
3566.12993
 21
1792.923604
 31
0.0
  0
LINE
  8
0
 62
     5
 10
3555.596283
 20
1857.362578
 30
0.0
 11
3557.711116
 21
1845.613535
 31
0.0
  0
LINE
  8
0
 62
     5
 10
3340.457853
 20
533.086089
 30
0.0
 11
3327.824355
 21
498.325489
 31
0.0
  0
LINE
  8
0
 62
     5
 10
3353.914588
 20
579.073386
 30
0.0
 11
3340.457853
 21
533.086089
 31
0.0
  0
LINE
  8
0
 62
     5
 10
3368.004581
 20
633.852292
 30
0.0
 11
3353.914588
 21
579.073386
 31
0.0
  0
LINE
  8
0
 62
     5
 10
3382.537856
 20
694.987723
 30
0.0
 11
3368.004581
 21
633.852292
 31
0.0
  0
LINE
  8
0
 62
     5
 10
3397.324433
 20
760.044591
 30
0.0
 11
3382.537856
 21
694.987723
 31
0.0
  0
LINE
  8
0
 62
     5
 10
3412.174337
 20
826.58781
 30
0.0
 11
3397.324433
 21
760.044591
 31
0.0
  0
LINE
  8
0
 62
     5
 10
3426.897589
 20
892.182294
 30
0.0
 11
3412.174337
 21
826.58781
 31
0.0
  0
LINE
  8
0
 62
     5
 10
3441.304212
 20
954.392956
 30
0.0
 11
3426.897589
 21
892.182294
 31
0.0
  0
LINE
  8
0
 62
     5
 10
3455.23589
 20
1011.315299
 30
0.0
 11
3441.304212
 21
954.392956
 31
0.0
  0
LINE
  8
0
 62
     5
 10
3468.660962
 20
1063.16718
 30
0.0
 11
3455.23589
 21
1011.315299
 31
0.0
  0
LINE
  8
0
 62
     5
 10
3481.579427
 20
1110.697046
 30
0.0
 11
3468.660962
 21
1063.16718
 31
0.0
  0
LINE
  8
0
 62
     5
 10
3493.991285
 20
1154.653344
 30
0.0
 11
3481.579427
 21
1110.697046
 31
0.0
  0
LINE
  8
0
 62
     5
 10
3505.896537
 20
1195.78452
 30
0.0
 11
3493.991285
 21
1154.653344
 31
0.0
  0
LINE
  8
0
 62
     5
 10
3517.295181
 20
1234.839021
 30
0.0
 11
3505.896537
 21
1195.78452
 31
0.0
  0
LINE
  8
0
 62
     5
 10
3528.18722
 20
1272.565292
 30
0.0
 11
3517.295181
 21
1234.839021
 31
0.0
  0
LINE
  8
0
 62
     5
 10
3538.572651
 20
1309.711781
 30
0.0
 11
3528.18722
 21
1272.565292
 31
0.0
  0
LINE
  8
0
 62
     5
 10
3548.409259
 20
1346.954901
 30
0.0
 11
3538.572651
 21
1309.711781
 31
0.0
  0
LINE
  8
0
 62
     5
 10
3557.485958
 20
1384.68293
 30
0.0
 11
3548.409259
 21
1346.954901
 31
0.0
  0
LINE
  8
0
 62
     5
 10
3565.549444
 20
1423.212113
 30
0.0
 11
3557.485958
 21
1384.68293
 31
0.0
  0
LINE
  8
0
 62
     5
 10
3572.346413
 20
1462.858695
 30
0.0
 11
3565.549444
 21
1423.212113
 31
0.0
  0
LINE
  8
0
 62
     5
 10
3575.128119
 20
1484.513015
 30
0.0
 11
3572.346413
 21
1462.858695
 31
0.0
  0
LINE
  8
0
 62
     5
 10
3372.880665
 20
533.086089
 30
0.0
 11
3360.247166
 21
498.325489
 31
0.0
  0
LINE
  8
0
 62
     5
 10
3386.337399
 20
579.073386
 30
0.0
 11
3372.880665
 21
533.086089
 31
0.0
  0
LINE
  8
0
 62
     5
 10
3400.427393
 20
633.852292
 30
0.0
 11
3386.337399
 21
579.073386
 31
0.0
  0
LINE
  8
0
 62
     5
 10
3414.960667
 20
694.987723
 30
0.0
 11
3400.427393
 21
633.852292
 31
0.0
  0
LINE
  8
0
 62
     5
 10
3429.747245
 20
760.044591
 30
0.0
 11
3414.960667
 21
694.987723
 31
0.0
  0
LINE
  8
0
 62
     5
 10
3444.597148
 20
826.58781
 30
0.0
 11
3429.747245
 21
760.044591
 31
0.0
  0
LINE
  8
0
 62
     5
 10
3459.3204
 20
892.182294
 30
0.0
 11
3444.597148
 21
826.58781
 31
0.0
  0
LINE
  8
0
 62
     5
 10
3473.727023
 20
954.392956
 30
0.0
 11
3459.3204
 21
892.182294
 31
0.0
  0
LINE
  8
0
 62
     5
 10
3487.658702
 20
1011.315299
 30
0.0
 11
3473.727023
 21
954.392956
 31
0.0
  0
LINE
  8
0
 62
     5
 10
3501.083773
 20
1063.16718
 30
0.0
 11
3487.658702
 21
1011.315299
 31
0.0
  0
LINE
  8
0
 62
     5
 10
3514.002238
 20
1110.697046
 30
0.0
 11
3501.083773
 21
1063.16718
 31
0.0
  0
LINE
  8
0
 62
     5
 10
3526.414096
 20
1154.653344
 30
0.0
 11
3514.002238
 21
1110.697046
 31
0.0
  0
LINE
  8
0
 62
     5
 10
3538.319348
 20
1195.78452
 30
0.0
 11
3526.414096
 21
1154.653344
 31
0.0
  0
LINE
  8
0
 62
     5
 10
3549.717993
 20
1234.839021
 30
0.0
 11
3538.319348
 21
1195.78452
 31
0.0
  0
LINE
  8
0
 62
     5
 10
3560.610031
 20
1272.565292
 30
0.0
 11
3549.717993
 21
1234.839021
 31
0.0
  0
LINE
  8
0
 62
     5
 10
3570.995463
 20
1309.711781
 30
0.0
 11
3560.610031
 21
1272.565292
 31
0.0
  0
LINE
  8
0
 62
     5
 10
3580.832071
 20
1346.954901
 30
0.0
 11
3570.995463
 21
1309.711781
 31
0.0
  0
LINE
  8
0
 62
     5
 10
3589.908769
 20
1384.68293
 30
0.0
 11
3580.832071
 21
1346.954901
 31
0.0
  0
LINE
  8
0
 62
     5
 10
3597.972255
 20
1423.212113
 30
0.0
 11
3589.908769
 21
1384.68293
 31
0.0
  0
LINE
  8
0
 62
     5
 10
3603.73612
 20
1456.832619
 30
0.0
 11
3597.972255
 21
1423.212113
 31
0.0
  0
LINE
  8
0
 62
     3
 10
3980.636487
 20
2885.872173
 30
0.0
 11
4025.337438
 21
2841.225422
 31
0.0
  0
LINE
  8
0
 62
     3
 10
3935.935536
 20
2841.225422
 30
0.0
 11
3980.636487
 21
2885.872173
 31
0.0
  0
LINE
  8
0
 62
     3
 10
3980.636487
 20
2850.792599
 30
0.0
 11
4025.337438
 21
2806.145848
 31
0.0
  0
LINE
  8
0
 62
     3
 10
3935.935536
 20
2806.145848
 30
0.0
 11
3980.636487
 21
2850.792599
 31
0.0
  0
LINE
  8
0
 62
     3
 10
4089.945592
 20
2679.559342
 30
0.0
 11
4134.646543
 21
2634.91259
 31
0.0
  0
LINE
  8
0
 62
     3
 10
4045.244641
 20
2634.91259
 30
0.0
 11
4089.945592
 21
2679.559342
 31
0.0
  0
LINE
  8
0
 62
     3
 10
3791.487772
 20
3545.096128
 30
0.0
 11
3836.188723
 21
3500.449377
 31
0.0
  0
LINE
  8
0
 62
     3
 10
3746.78682
 20
3500.449377
 30
0.0
 11
3791.487772
 21
3545.096128
 31
0.0
  0
LINE
  8
0
 62
     3
 10
3539.246628
 20
3219.812707
 30
0.0
 11
3583.947579
 21
3175.165956
 31
0.0
  0
LINE
  8
0
 62
     3
 10
3494.545677
 20
3175.165956
 30
0.0
 11
3539.246628
 21
3219.812707
 31
0.0
  0
LINE
  8
0
 62
     3
 10
3539.246628
 20
3286.782816
 30
0.0
 11
3583.947579
 21
3242.136064
 31
0.0
  0
LINE
  8
0
 62
     3
 10
3494.545677
 20
3242.136064
 30
0.0
 11
3539.246628
 21
3286.782816
 31
0.0
  0
LINE
  8
0
 62
     3
 10
3791.434279
 20
3477.18178
 30
0.0
 11
3791.434279
 21
3408.340976
 31
0.0
  0
LINE
  8
0
 62
     3
 10
3826.556479
 20
3266.704278
 30
0.0
 11
3826.556479
 21
3197.863475
 31
0.0
  0
LINE
  8
0
 62
     3
 10
3826.609971
 20
3302.728092
 30
0.0
 11
3871.310923
 21
3258.081341
 31
0.0
  0
LINE
  8
0
 62
     3
 10
3781.90902
 20
3258.081341
 30
0.0
 11
3826.609971
 21
3302.728092
 31
0.0
  0
LINE
  8
0
 62
     3
 10
3826.609971
 20
3267.648518
 30
0.0
 11
3871.310923
 21
3223.001767
 31
0.0
  0
LINE
  8
0
 62
     3
 10
3781.90902
 20
3223.001767
 30
0.0
 11
3826.609971
 21
3267.648518
 31
0.0
  0
LINE
  8
0
 62
     3
 10
3826.609971
 20
3334.618626
 30
0.0
 11
3871.310923
 21
3289.971875
 31
0.0
  0
LINE
  8
0
 62
     3
 10
3781.90902
 20
3289.971875
 30
0.0
 11
3826.609971
 21
3334.618626
 31
0.0
  0
LINE
  8
0
 62
     3
 10
3657.384885
 20
3420.723051
 30
0.0
 11
3702.085836
 21
3376.076299
 31
0.0
  0
LINE
  8
0
 62
     3
 10
3612.683933
 20
3376.076299
 30
0.0
 11
3657.384885
 21
3420.723051
 31
0.0
  0
LINE
  8
0
 62
     3
 10
3695.69999
 20
3203.86745
 30
0.0
 11
3740.400941
 21
3159.220698
 31
0.0
  0
LINE
  8
0
 62
     3
 10
3650.999039
 20
3159.220698
 30
0.0
 11
3695.69999
 21
3203.86745
 31
0.0
  0
LINE
  8
0
 62
     3
 10
3657.384885
 20
3353.752943
 30
0.0
 11
3702.085836
 21
3309.106191
 31
0.0
  0
LINE
  8
0
 62
     3
 10
3612.683933
 20
3309.106191
 30
0.0
 11
3657.384885
 21
3353.752943
 31
0.0
  0
LINE
  8
0
 62
     3
 10
3657.384885
 20
3388.832517
 30
0.0
 11
3702.085836
 21
3344.185765
 31
0.0
  0
LINE
  8
0
 62
     3
 10
3612.683933
 20
3344.185765
 30
0.0
 11
3657.384885
 21
3388.832517
 31
0.0
  0
LINE
  8
0
 62
     3
 10
3657.331392
 20
3352.808703
 30
0.0
 11
3657.331392
 21
3283.967899
 31
0.0
  0
LINE
  8
0
 62
     3
 10
3791.487772
 20
3513.205594
 30
0.0
 11
3836.188723
 21
3468.558842
 31
0.0
  0
LINE
  8
0
 62
     3
 10
3746.78682
 20
3468.558842
 30
0.0
 11
3791.487772
 21
3513.205594
 31
0.0
  0
LINE
  8
0
 62
     3
 10
3791.487772
 20
3478.12602
 30
0.0
 11
3836.188723
 21
3433.479268
 31
0.0
  0
LINE
  8
0
 62
     3
 10
3746.78682
 20
3433.479268
 30
0.0
 11
3791.487772
 21
3478.12602
 31
0.0
  0
LINE
  8
0
 62
     3
 10
3772.27671
 20
2950.988035
 30
0.0
 11
3772.27671
 21
2882.147231
 31
0.0
  0
LINE
  8
0
 62
     3
 10
3695.646498
 20
3135.953102
 30
0.0
 11
3695.646498
 21
3067.112298
 31
0.0
  0
LINE
  8
0
 62
     3
 10
3695.69999
 20
3136.897342
 30
0.0
 11
3740.400941
 21
3092.25059
 31
0.0
  0
LINE
  8
0
 62
     3
 10
3650.999039
 20
3092.25059
 30
0.0
 11
3695.69999
 21
3136.897342
 31
0.0
  0
LINE
  8
0
 62
     3
 10
3772.330202
 20
2987.011849
 30
0.0
 11
3817.031153
 21
2942.365098
 31
0.0
  0
LINE
  8
0
 62
     3
 10
3727.629251
 20
2942.365098
 30
0.0
 11
3772.330202
 21
2987.011849
 31
0.0
  0
LINE
  8
0
 62
     3
 10
3772.330202
 20
2951.932275
 30
0.0
 11
3817.031153
 21
2907.285523
 31
0.0
  0
LINE
  8
0
 62
     3
 10
3727.629251
 20
2907.285523
 30
0.0
 11
3772.330202
 21
2951.932275
 31
0.0
  0
LINE
  8
0
 62
     3
 10
3772.330202
 20
3018.902383
 30
0.0
 11
3817.031153
 21
2974.255632
 31
0.0
  0
LINE
  8
0
 62
     3
 10
3727.629251
 20
2974.255632
 30
0.0
 11
3772.330202
 21
3018.902383
 31
0.0
  0
LINE
  8
0
 62
     3
 10
3896.170339
 20
3141.078365
 30
0.0
 11
3940.87129
 21
3096.431614
 31
0.0
  0
LINE
  8
0
 62
     3
 10
3851.469388
 20
3096.431614
 30
0.0
 11
3896.170339
 21
3141.078365
 31
0.0
  0
LINE
  8
0
 62
     3
 10
3695.69999
 20
3171.976916
 30
0.0
 11
3740.400941
 21
3127.330164
 31
0.0
  0
LINE
  8
0
 62
     3
 10
3650.999039
 20
3127.330164
 30
0.0
 11
3695.69999
 21
3171.976916
 31
0.0
  0
LINE
  8
0
 62
     3
 10
3896.170339
 20
3074.108257
 30
0.0
 11
3940.87129
 21
3029.461506
 31
0.0
  0
LINE
  8
0
 62
     3
 10
3851.469388
 20
3029.461506
 30
0.0
 11
3896.170339
 21
3074.108257
 31
0.0
  0
LINE
  8
0
 62
     3
 10
3896.170339
 20
3109.187831
 30
0.0
 11
3940.87129
 21
3064.54108
 31
0.0
  0
LINE
  8
0
 62
     3
 10
3851.469388
 20
3064.54108
 30
0.0
 11
3896.170339
 21
3109.187831
 31
0.0
  0
LINE
  8
0
 62
     3
 10
3980.582995
 20
2849.848359
 30
0.0
 11
3980.582995
 21
2781.007556
 31
0.0
  0
LINE
  8
0
 62
     3
 10
4089.945592
 20
2647.668808
 30
0.0
 11
4134.646543
 21
2603.022056
 31
0.0
  0
LINE
  8
0
 62
     3
 10
4045.244641
 20
2603.022056
 30
0.0
 11
4089.945592
 21
2647.668808
 31
0.0
  0
LINE
  8
0
 62
     5
 10
3411.382763
 20
3387.15683
 30
0.0
 11
3406.413521
 21
3355.822527
 31
0.0
  0
LINE
  8
0
 62
     5
 10
3423.291534
 20
3452.419257
 30
0.0
 11
3411.382763
 21
3387.15683
 31
0.0
  0
LINE
  8
0
 62
     5
 10
3437.121188
 20
3519.512391
 30
0.0
 11
3423.291534
 21
3452.419257
 31
0.0
  0
LINE
  8
0
 62
     5
 10
3453.209462
 20
3589.093319
 30
0.0
 11
3437.121188
 21
3519.512391
 31
0.0
  0
LINE
  8
0
 62
     5
 10
3471.95742
 20
3661.963196
 30
0.0
 11
3453.209462
 21
3589.093319
 31
0.0
  0
LINE
  8
0
 62
     5
 10
3493.766125
 20
3738.923174
 30
0.0
 11
3471.95742
 21
3661.963196
 31
0.0
  0
LINE
  8
0
 62
     5
 10
3519.036642
 20
3820.77441
 30
0.0
 11
3493.766125
 21
3738.923174
 31
0.0
  0
LINE
  8
0
 62
     5
 10
3548.170033
 20
3908.318055
 30
0.0
 11
3519.036642
 21
3820.77441
 31
0.0
  0
LINE
  8
0
 62
     5
 10
3581.567361
 20
4002.355266
 30
0.0
 11
3548.170033
 21
3908.318055
 31
0.0
  0
LINE
  8
0
 62
     5
 10
3619.629691
 20
4103.687195
 30
0.0
 11
3581.567361
 21
4002.355266
 31
0.0
  0
LINE
  8
0
 62
     5
 10
3368.88763
 20
3323.644292
 30
0.0
 11
3368.068588
 21
3317.524097
 31
0.0
  0
LINE
  8
0
 62
     5
 10
3378.959952
 20
3387.15683
 30
0.0
 11
3368.88763
 21
3323.644292
 31
0.0
  0
LINE
  8
0
 62
     5
 10
3390.868723
 20
3452.419257
 30
0.0
 11
3378.959952
 21
3387.15683
 31
0.0
  0
LINE
  8
0
 62
     5
 10
3404.698377
 20
3519.512391
 30
0.0
 11
3390.868723
 21
3452.419257
 31
0.0
  0
LINE
  8
0
 62
     5
 10
3420.786651
 20
3589.093319
 30
0.0
 11
3404.698377
 21
3519.512391
 31
0.0
  0
LINE
  8
0
 62
     5
 10
3439.534609
 20
3661.963196
 30
0.0
 11
3420.786651
 21
3589.093319
 31
0.0
  0
LINE
  8
0
 62
     5
 10
3461.343314
 20
3738.923174
 30
0.0
 11
3439.534609
 21
3661.963196
 31
0.0
  0
LINE
  8
0
 62
     5
 10
3486.613831
 20
3820.77441
 30
0.0
 11
3461.343314
 21
3738.923174
 31
0.0
  0
LINE
  8
0
 62
     5
 10
3515.747221
 20
3908.318055
 30
0.0
 11
3486.613831
 21
3820.77441
 31
0.0
  0
LINE
  8
0
 62
     5
 10
3549.14455
 20
4002.355266
 30
0.0
 11
3515.747221
 21
3908.318055
 31
0.0
  0
LINE
  8
0
 62
     5
 10
3587.20688
 20
4103.687195
 30
0.0
 11
3549.14455
 21
4002.355266
 31
0.0
  0
LINE
  8
0
 62
     5
 10
3548.363523
 20
1897.544478
 30
0.0
 11
3552.852515
 21
1872.605695
 31
0.0
  0
LINE
  8
0
 62
     5
 10
3538.488215
 20
1947.85203
 30
0.0
 11
3548.363523
 21
1897.544478
 31
0.0
  0
LINE
  8
0
 62
     5
 10
3528.486256
 20
1995.671788
 30
0.0
 11
3538.488215
 21
1947.85203
 31
0.0
  0
LINE
  8
0
 62
     5
 10
3518.758707
 20
2040.139349
 30
0.0
 11
3528.486256
 21
1995.671788
 31
0.0
  0
LINE
  8
0
 62
     5
 10
3509.6222
 20
2080.664389
 30
0.0
 11
3518.758707
 21
2040.139349
 31
0.0
  0
LINE
  8
0
 62
     5
 10
3501.055624
 20
2117.7529
 30
0.0
 11
3509.6222
 21
2080.664389
 31
0.0
  0
LINE
  8
0
 62
     5
 10
3492.953437
 20
2152.184952
 30
0.0
 11
3501.055624
 21
2117.7529
 31
0.0
  0
LINE
  8
0
 62
     5
 10
3485.210096
 20
2184.740618
 30
0.0
 11
3492.953437
 21
2152.184952
 31
0.0
  0
LINE
  8
0
 62
     5
 10
3477.720059
 20
2216.199968
 30
0.0
 11
3485.210096
 21
2184.740618
 31
0.0
  0
LINE
  8
0
 62
     5
 10
3470.377782
 20
2247.343073
 30
0.0
 11
3477.720059
 21
2216.199968
 31
0.0
  0
LINE
  8
0
 62
     5
 10
3463.077722
 20
2278.950004
 30
0.0
 11
3470.377782
 21
2247.343073
 31
0.0
  0
LINE
  8
0
 62
     5
 10
3455.714337
 20
2311.800832
 30
0.0
 11
3463.077722
 21
2278.950004
 31
0.0
  0
LINE
  8
0
 62
     5
 10
3448.203192
 20
2346.503451
 30
0.0
 11
3455.714337
 21
2311.800832
 31
0.0
  0
LINE
  8
0
 62
     5
 10
3440.544287
 20
2382.977041
 30
0.0
 11
3448.203192
 21
2346.503451
 31
0.0
  0
LINE
  8
0
 62
     5
 10
3432.75873
 20
2420.968608
 30
0.0
 11
3440.544287
 21
2382.977041
 31
0.0
  0
LINE
  8
0
 62
     5
 10
3424.867631
 20
2460.225154
 30
0.0
 11
3432.75873
 21
2420.968608
 31
0.0
  0
LINE
  8
0
 62
     5
 10
3416.892098
 20
2500.493685
 30
0.0
 11
3424.867631
 21
2460.225154
 31
0.0
  0
LINE
  8
0
 62
     5
 10
3408.853239
 20
2541.521204
 30
0.0
 11
3416.892098
 21
2500.493685
 31
0.0
  0
LINE
  8
0
 62
     5
 10
3400.772162
 20
2583.054715
 30
0.0
 11
3408.853239
 21
2541.521204
 31
0.0
  0
LINE
  8
0
 62
     5
 10
3392.669978
 20
2624.841221
 30
0.0
 11
3400.772162
 21
2583.054715
 31
0.0
  0
LINE
  8
0
 62
     5
 10
3384.599456
 20
2666.715574
 30
0.0
 11
3392.669978
 21
2624.841221
 31
0.0
  0
LINE
  8
0
 62
     5
 10
3376.74002
 20
2708.864006
 30
0.0
 11
3384.599456
 21
2666.715574
 31
0.0
  0
LINE
  8
0
 62
     5
 10
3369.302756
 20
2751.560595
 30
0.0
 11
3376.74002
 21
2708.864006
 31
0.0
  0
LINE
  8
0
 62
     5
 10
3362.498751
 20
2795.079422
 30
0.0
 11
3369.302756
 21
2751.560595
 31
0.0
  0
LINE
  8
0
 62
     5
 10
3356.539089
 20
2839.694564
 30
0.0
 11
3362.498751
 21
2795.079422
 31
0.0
  0
LINE
  8
0
 62
     5
 10
3351.634858
 20
2885.680102
 30
0.0
 11
3356.539089
 21
2839.694564
 31
0.0
  0
LINE
  8
0
 62
     5
 10
3347.997143
 20
2933.310113
 30
0.0
 11
3351.634858
 21
2885.680102
 31
0.0
  0
LINE
  8
0
 62
     5
 10
3345.83703
 20
2982.858678
 30
0.0
 11
3347.997143
 21
2933.310113
 31
0.0
  0
LINE
  8
0
 62
     5
 10
3345.333942
 20
3034.543653
 30
0.0
 11
3345.83703
 21
2982.858678
 31
0.0
  0
LINE
  8
0
 62
     5
 10
3346.540652
 20
3088.358011
 30
0.0
 11
3345.333942
 21
3034.543653
 31
0.0
  0
LINE
  8
0
 62
     5
 10
3346.780937
 20
3092.928818
 30
0.0
 11
3346.540652
 21
3088.358011
 31
0.0
  0
LINE
  8
0
 62
     5
 10
3570.911027
 20
1947.85203
 30
0.0
 11
3580.300346
 21
1900.020238
 31
0.0
  0
LINE
  8
0
 62
     5
 10
3560.909067
 20
1995.671788
 30
0.0
 11
3570.911027
 21
1947.85203
 31
0.0
  0
LINE
  8
0
 62
     5
 10
3551.181519
 20
2040.139349
 30
0.0
 11
3560.909067
 21
1995.671788
 31
0.0
  0
LINE
  8
0
 62
     5
 10
3542.045011
 20
2080.664389
 30
0.0
 11
3551.181519
 21
2040.139349
 31
0.0
  0
LINE
  8
0
 62
     5
 10
3533.478435
 20
2117.7529
 30
0.0
 11
3542.045011
 21
2080.664389
 31
0.0
  0
LINE
  8
0
 62
     5
 10
3525.376248
 20
2152.184952
 30
0.0
 11
3533.478435
 21
2117.7529
 31
0.0
  0
LINE
  8
0
 62
     5
 10
3517.632908
 20
2184.740618
 30
0.0
 11
3525.376248
 21
2152.184952
 31
0.0
  0
LINE
  8
0
 62
     5
 10
3510.14287
 20
2216.199968
 30
0.0
 11
3517.632908
 21
2184.740618
 31
0.0
  0
LINE
  8
0
 62
     5
 10
3502.800593
 20
2247.343073
 30
0.0
 11
3510.14287
 21
2216.199968
 31
0.0
  0
LINE
  8
0
 62
     5
 10
3495.500533
 20
2278.950004
 30
0.0
 11
3502.800593
 21
2247.343073
 31
0.0
  0
LINE
  8
0
 62
     5
 10
3488.137148
 20
2311.800832
 30
0.0
 11
3495.500533
 21
2278.950004
 31
0.0
  0
LINE
  8
0
 62
     5
 10
3480.626003
 20
2346.503451
 30
0.0
 11
3488.137148
 21
2311.800832
 31
0.0
  0
LINE
  8
0
 62
     5
 10
3472.967098
 20
2382.977041
 30
0.0
 11
3480.626003
 21
2346.503451
 31
0.0
  0
LINE
  8
0
 62
     5
 10
3465.181541
 20
2420.968608
 30
0.0
 11
3472.967098
 21
2382.977041
 31
0.0
  0
LINE
  8
0
 62
     5
 10
3457.290442
 20
2460.225154
 30
0.0
 11
3465.181541
 21
2420.968608
 31
0.0
  0
LINE
  8
0
 62
     5
 10
3449.314909
 20
2500.493685
 30
0.0
 11
3457.290442
 21
2460.225154
 31
0.0
  0
LINE
  8
0
 62
     5
 10
3441.27605
 20
2541.521204
 30
0.0
 11
3449.314909
 21
2500.493685
 31
0.0
  0
LINE
  8
0
 62
     5
 10
3433.194974
 20
2583.054715
 30
0.0
 11
3441.27605
 21
2541.521204
 31
0.0
  0
LINE
  8
0
 62
     5
 10
3425.092789
 20
2624.841221
 30
0.0
 11
3433.194974
 21
2583.054715
 31
0.0
  0
LINE
  8
0
 62
     5
 10
3417.022267
 20
2666.715574
 30
0.0
 11
3425.092789
 21
2624.841221
 31
0.0
  0
LINE
  8
0
 62
     5
 10
3409.162831
 20
2708.864006
 30
0.0
 11
3417.022267
 21
2666.715574
 31
0.0
  0
LINE
  8
0
 62
     5
 10
3401.725568
 20
2751.560595
 30
0.0
 11
3409.162831
 21
2708.864006
 31
0.0
  0
LINE
  8
0
 62
     5
 10
3394.921562
 20
2795.079422
 30
0.0
 11
3401.725568
 21
2751.560595
 31
0.0
  0
LINE
  8
0
 62
     5
 10
3388.961901
 20
2839.694564
 30
0.0
 11
3394.921562
 21
2795.079422
 31
0.0
  0
LINE
  8
0
 62
     5
 10
3384.057669
 20
2885.680102
 30
0.0
 11
3388.961901
 21
2839.694564
 31
0.0
  0
LINE
  8
0
 62
     5
 10
3380.419954
 20
2933.310113
 30
0.0
 11
3384.057669
 21
2885.680102
 31
0.0
  0
LINE
  8
0
 62
     5
 10
3378.259841
 20
2982.858678
 30
0.0
 11
3380.419954
 21
2933.310113
 31
0.0
  0
LINE
  8
0
 62
     5
 10
3377.756754
 20
3034.543653
 30
0.0
 11
3378.259841
 21
2982.858678
 31
0.0
  0
LINE
  8
0
 62
     5
 10
3378.334044
 20
3060.288452
 30
0.0
 11
3377.756754
 21
3034.543653
 31
0.0
  0
POLYLINE
  8
0
 66
     1
 10
0.0
 20
0.0
 30
0.0
  0
VERTEX
  8
0
 10
1712.994089
 20
909.458164
 30
0.0
  0
VERTEX
  8
0
 10
1712.994089
 20
913.297828
 30
0.0
  0
SEQEND
  8
0
  0
POLYLINE
  8
0
 66
     1
 10
0.0
 20
0.0
 30
0.0
  0
VERTEX
  8
0
 10
3849.55714
 20
3770.519105
 30
0.0
  0
VERTEX
  8
0
 10
4111.105309
 20
4030.315569
 30
0.0
  0
SEQEND
  8
0
  0
POLYLINE
  8
0
 66
     1
 10
0.0
 20
0.0
 30
0.0
  0
VERTEX
  8
0
 10
2313.363304
 20
4150.413509
 30
0.0
  0
VERTEX
  8
0
 10
2183.337003
 20
4281.124499
 30
0.0
  0
SEQEND
  8
0
  0
POLYLINE
  8
0
 62
     3
 66
     1
 10
0.0
 20
0.0
 30
0.0
  0
VERTEX
  8
0
 62
     3
 10
3896.116846
 20
3073.164017
 30
0.0
  0
VERTEX
  8
0
 62
     3
 10
3896.116846
 20
3004.323214
 30
0.0
  0
SEQEND
  8
0
 62
     3
  0
POLYLINE
  8
0
 62
     3
 66
     1
 10
0.0
 20
0.0
 30
0.0
  0
VERTEX
  8
0
 62
     3
 10
4089.8921
 20
2611.644994
 30
0.0
  0
VERTEX
  8
0
 62
     3
 10
4089.8921
 20
2542.80419
 30
0.0
  0
SEQEND
  8
0
 62
     3
  0
POLYLINE
  8
0
 62
     3
 66
     1
 10
0.0
 20
0.0
 30
0.0
  0
VERTEX
  8
0
 62
     3
 10
4045.244641
 20
2567.942482
 30
0.0
  0
VERTEX
  8
0
 62
     3
 10
4089.945592
 20
2612.589234
 30
0.0
  0
VERTEX
  8
0
 62
     3
 10
4134.646543
 20
2567.942482
 30
0.0
  0
SEQEND
  8
0
 62
     3
  0
POLYLINE
  8
0
 62
     3
 66
     1
 10
0.0
 20
0.0
 30
0.0
  0
VERTEX
  8
0
 62
     3
 10
3935.935536
 20
2873.115956
 30
0.0
  0
VERTEX
  8
0
 62
     3
 10
3980.636487
 20
2917.762707
 30
0.0
  0
VERTEX
  8
0
 62
     3
 10
4025.337438
 20
2873.115956
 30
0.0
  0
SEQEND
  8
0
 62
     3
  0
POLYLINE
  8
0
 62
     3
 66
     1
 10
0.0
 20
0.0
 30
0.0
  0
VERTEX
  8
0
 62
     3
 10
3494.545677
 20
3210.24553
 30
0.0
  0
VERTEX
  8
0
 62
     3
 10
3539.246628
 20
3254.892282
 30
0.0
  0
VERTEX
  8
0
 62
     3
 10
3583.947579
 20
3210.24553
 30
0.0
  0
SEQEND
  8
0
 62
     3
  0
POLYLINE
  8
0
 62
     3
 66
     1
 10
0.0
 20
0.0
 30
0.0
  0
VERTEX
  8
0
 62
     3
 10
3539.193136
 20
3218.868467
 30
0.0
  0
VERTEX
  8
0
 62
     3
 10
3539.193136
 20
3150.027664
 30
0.0
  0
SEQEND
  8
0
 62
     3
  0
POLYLINE
  8
0
 66
     1
 10
0.0
 20
0.0
 30
0.0
  0
VERTEX
  8
0
 10
4176.204948
 20
2285.30959
 30
0.0
  0
VERTEX
  8
0
 10
4408.953702
 20
2052.139899
 30
0.0
  0
SEQEND
  8
0
  0
POLYLINE
  8
0
 66
     1
 10
0.0
 20
0.0
 30
0.0
  0
VERTEX
  8
0
 10
1863.355778
 20
171.013218
 30
0.0
  0
VERTEX
  8
0
 10
4075.646295
 20
2385.990363
 30
0.0
  0
SEQEND
  8
0
  0
TEXT
  8
0
 10
1343.740318
 20
2827.419154
 30
0.0
 40
50.0
  1
SUPPLIES SITE
  0
TEXT
  8
0
 10
1400.752273
 20
2927.069013
 30
0.0
 40
50.0
  1
SUNRISE FUEL
  0
TEXT
  8
0
 10
1881.366605
 20
2528.058052
 30
0.0
 40
50.0
  1
AREA
  0
TEXT
  8
0
 10
1842.117881
 20
2600.14249
 30
0.0
 40
50.0
  1
UST
  0
CIRCLE
  8
0
 62
     1
 39
2.0
 10
2033.965694
 20
2639.685197
 30
0.0
 40
18.47399
  0
CIRCLE
  8
0
 62
     1
 39
2.0
 10
2001.726476
 20
2671.885338
 30
0.0
 40
18.47399
  0
CIRCLE
  8
0
 62
     1
 39
2.0
 10
1967.337922
 20
2704.085499
 30
0.0
 40
18.47399
  0
CIRCLE
  8
0
 62
     1
 39
2.0
 10
1935.09867
 20
2738.43232
 30
0.0
 40
18.47399
  0
POLYLINE
  8
0
 66
     1
 10
0.0
 20
0.0
 30
0.0
 40
3.0
 41
3.0
  0
VERTEX
  8
0
 10
1943.53499
 20
2784.502417
 30
0.0
  0
VERTEX
  8
0
 10
2080.065713
 20
2647.805877
 30
0.0
  0
VERTEX
  8
0
 10
2227.573119
 20
2795.134352
 30
0.0
  0
VERTEX
  8
0
 10
2089.525385
 20
2933.349745
 30
0.0
  0
VERTEX
  8
0
 10
1943.538664
 20
2787.540109
 30
0.0
  0
SEQEND
  8
0
  0
POLYLINE
  8
0
 66
     1
 10
0.0
 20
0.0
 30
0.0
  0
VERTEX
  8
0
 10
2338.209782
 20
2257.959019
 30
0.0
  0
VERTEX
  8
0
 10
2309.32833
 20
2286.805423
 30
0.0
  0
VERTEX
  8
0
 10
2213.79742
 20
2191.390399
 30
0.0
  0
VERTEX
  8
0
 10
2096.050034
 20
2308.994976
 30
0.0
  0
VERTEX
  8
0
 10
2293.776798
 20
2506.481913
 30
0.0
  0
VERTEX
  8
0
 10
2409.302536
 20
2388.877336
 30
0.0
  0
VERTEX
  8
0
 10
2315.993273
 20
2295.681255
 30
0.0
  0
VERTEX
  8
0
 10
2346.287445
 20
2265.423835
 30
0.0
  0
SEQEND
  8
0
  0
POLYLINE
  8
0
 39
10.0
 66
     1
 10
0.0
 20
0.0
 30
0.0
 40
4.0
 41
4.0
  0
VERTEX
  8
0
 39
10.0
 10
2320.174572
 20
2275.972343
 30
0.0
  0
VERTEX
  8
0
 39
10.0
 10
2213.897557
 20
2169.824239
 30
0.0
  0
VERTEX
  8
0
 39
10.0
 10
1759.869367
 20
2623.301738
 30
0.0
  0
VERTEX
  8
0
 39
10.0
 10
2085.838314
 20
2948.87534
 30
0.0
  0
VERTEX
  8
0
 39
10.0
 10
2090.575209
 20
2953.151793
 30
0.0
  0
VERTEX
  8
0
 39
10.0
 10
2103.626132
 20
2940.11671
 30
0.0
  0
VERTEX
  8
0
 39
10.0
 10
2105.241253
 20
2937.247715
 30
0.0
  0
SEQEND
  8
0
 39
10.0
  0
POLYLINE
  8
0
 39
10.0
 66
     1
 10
0.0
 20
0.0
 30
0.0
 40
4.0
 41
4.0
  0
VERTEX
  8
0
 39
10.0
 10
2105.241253
 20
2937.247715
 30
0.0
  0
VERTEX
  8
0
 39
10.0
 10
2543.747119
 20
2499.273704
 30
0.0
  0
VERTEX
  8
0
 39
10.0
 10
2327.950347
 20
2283.738687
 30
0.0
  0
SEQEND
  8
0
 39
10.0
  0
POLYLINE
  8
0
 66
     1
 10
0.0
 20
0.0
 30
0.0
  0
VERTEX
  8
0
 10
2292.069498
 20
2465.915603
 30
0.0
  0
VERTEX
  8
0
 10
2321.977623
 20
2436.043746
 30
0.0
  0
SEQEND
  8
0
  0
POLYLINE
  8
0
 66
     1
 10
0.0
 20
0.0
 30
0.0
  0
VERTEX
  8
0
 10
2289.955206
 20
2375.951001
 30
0.0
  0
VERTEX
  8
0
 10
2319.863331
 20
2346.079144
 30
0.0
  0
SEQEND
  8
0
  0
POLYLINE
  8
0
 66
     1
 10
0.0
 20
0.0
 30
0.0
  0
VERTEX
  8
0
 10
2313.4274
 20
2398.638483
 30
0.0
  0
VERTEX
  8
0
 10
2343.335524
 20
2368.766626
 30
0.0
  0
SEQEND
  8
0
  0
POLYLINE
  8
0
 66
     1
 10
0.0
 20
0.0
 30
0.0
  0
VERTEX
  8
0
 10
2301.312726
 20
2386.916611
 30
0.0
  0
VERTEX
  8
0
 10
2331.22085
 20
2357.044754
 30
0.0
  0
SEQEND
  8
0
  0
POLYLINE
  8
0
 66
     1
 10
0.0
 20
0.0
 30
0.0
  0
VERTEX
  8
0
 10
2282.817434
 20
2339.316541
 30
0.0
  0
VERTEX
  8
0
 10
2361.009545
 20
2417.413827
 30
0.0
  0
SEQEND
  8
0
  0
POLYLINE
  8
0
 66
     1
 10
0.0
 20
0.0
 30
0.0
  0
VERTEX
  8
0
 10
2325.163513
 20
2408.847849
 30
0.0
  0
VERTEX
  8
0
 10
2355.071638
 20
2378.975992
 30
0.0
  0
SEQEND
  8
0
  0
POLYLINE
  8
0
 66
     1
 10
0.0
 20
0.0
 30
0.0
  0
VERTEX
  8
0
 10
2232.63181
 20
2411.465628
 30
0.0
  0
VERTEX
  8
0
 10
2262.539934
 20
2381.593771
 30
0.0
  0
SEQEND
  8
0
  0
POLYLINE
  8
0
 66
     1
 10
0.0
 20
0.0
 30
0.0
  0
VERTEX
  8
0
 10
2245.125078
 20
2422.809369
 30
0.0
  0
VERTEX
  8
0
 10
2275.033202
 20
2392.937512
 30
0.0
  0
SEQEND
  8
0
  0
POLYLINE
  8
0
 66
     1
 10
0.0
 20
0.0
 30
0.0
  0
VERTEX
  8
0
 10
2237.987306
 20
2386.174909
 30
0.0
  0
VERTEX
  8
0
 10
2316.179416
 20
2464.272195
 30
0.0
  0
SEQEND
  8
0
  0
POLYLINE
  8
0
 66
     1
 10
0.0
 20
0.0
 30
0.0
  0
VERTEX
  8
0
 10
2256.482597
 20
2433.774979
 30
0.0
  0
VERTEX
  8
0
 10
2286.390722
 20
2403.903122
 30
0.0
  0
SEQEND
  8
0
  0
POLYLINE
  8
0
 66
     1
 10
0.0
 20
0.0
 30
0.0
  0
VERTEX
  8
0
 10
2268.597271
 20
2445.496851
 30
0.0
  0
VERTEX
  8
0
 10
2298.505396
 20
2415.624994
 30
0.0
  0
SEQEND
  8
0
  0
POLYLINE
  8
0
 66
     1
 10
0.0
 20
0.0
 30
0.0
  0
VERTEX
  8
0
 10
2280.333385
 20
2455.706217
 30
0.0
  0
VERTEX
  8
0
 10
2310.241509
 20
2425.83436
 30
0.0
  0
SEQEND
  8
0
  0
POLYLINE
  8
0
 66
     1
 10
0.0
 20
0.0
 30
0.0
  0
VERTEX
  8
0
 10
2277.461938
 20
2364.607261
 30
0.0
  0
VERTEX
  8
0
 10
2307.370063
 20
2334.735404
 30
0.0
  0
SEQEND
  8
0
  0
POLYLINE
  8
0
 66
     1
 10
0.0
 20
0.0
 30
0.0
  0
VERTEX
  8
0
 10
2336.899627
 20
2419.057235
 30
0.0
  0
VERTEX
  8
0
 10
2366.807751
 20
2389.185378
 30
0.0
  0
SEQEND
  8
0
  0
POLYLINE
  8
0
 66
     1
 10
0.0
 20
0.0
 30
0.0
  0
VERTEX
  8
0
 10
2243.069101
 20
2323.257916
 30
0.0
  0
VERTEX
  8
0
 10
2272.977226
 20
2293.38606
 30
0.0
  0
SEQEND
  8
0
  0
POLYLINE
  8
0
 66
     1
 10
0.0
 20
0.0
 30
0.0
  0
VERTEX
  8
0
 10
2231.332988
 20
2313.048531
 30
0.0
  0
VERTEX
  8
0
 10
2261.241112
 20
2283.176674
 30
0.0
  0
SEQEND
  8
0
  0
POLYLINE
  8
0
 66
     1
 10
0.0
 20
0.0
 30
0.0
  0
VERTEX
  8
0
 10
2183.631413
 20
2268.807942
 30
0.0
  0
VERTEX
  8
0
 10
2213.539537
 20
2238.936085
 30
0.0
  0
SEQEND
  8
0
  0
POLYLINE
  8
0
 66
     1
 10
0.0
 20
0.0
 30
0.0
  0
VERTEX
  8
0
 10
2196.124681
 20
2280.151683
 30
0.0
  0
VERTEX
  8
0
 10
2226.032805
 20
2250.279826
 30
0.0
  0
SEQEND
  8
0
  0
POLYLINE
  8
0
 66
     1
 10
0.0
 20
0.0
 30
0.0
  0
VERTEX
  8
0
 10
2188.986909
 20
2243.517222
 30
0.0
  0
VERTEX
  8
0
 10
2267.179019
 20
2321.614508
 30
0.0
  0
SEQEND
  8
0
  0
POLYLINE
  8
0
 66
     1
 10
0.0
 20
0.0
 30
0.0
  0
VERTEX
  8
0
 10
2207.4822
 20
2291.117292
 30
0.0
  0
VERTEX
  8
0
 10
2237.390325
 20
2261.245435
 30
0.0
  0
SEQEND
  8
0
  0
POLYLINE
  8
0
 66
     1
 10
0.0
 20
0.0
 30
0.0
  0
VERTEX
  8
0
 10
2219.596874
 20
2302.839164
 30
0.0
  0
VERTEX
  8
0
 10
2249.504999
 20
2272.967307
 30
0.0
  0
SEQEND
  8
0
  0
POLYLINE
  8
0
 66
     1
 10
0.0
 20
0.0
 30
0.0
  0
VERTEX
  8
0
 10
2198.238973
 20
2370.116284
 30
0.0
  0
VERTEX
  8
0
 10
2228.147097
 20
2340.244427
 30
0.0
  0
SEQEND
  8
0
  0
POLYLINE
  8
0
 66
     1
 10
0.0
 20
0.0
 30
0.0
  0
VERTEX
  8
0
 10
2186.502859
 20
2359.906898
 30
0.0
  0
VERTEX
  8
0
 10
2216.410984
 20
2330.035042
 30
0.0
  0
SEQEND
  8
0
  0
POLYLINE
  8
0
 66
     1
 10
0.0
 20
0.0
 30
0.0
  0
VERTEX
  8
0
 10
2174.766746
 20
2349.697532
 30
0.0
  0
VERTEX
  8
0
 10
2204.67487
 20
2319.825675
 30
0.0
  0
SEQEND
  8
0
  0
POLYLINE
  8
0
 66
     1
 10
0.0
 20
0.0
 30
0.0
  0
VERTEX
  8
0
 10
2162.652072
 20
2337.97566
 30
0.0
  0
VERTEX
  8
0
 10
2192.560196
 20
2308.103803
 30
0.0
  0
SEQEND
  8
0
  0
POLYLINE
  8
0
 66
     1
 10
0.0
 20
0.0
 30
0.0
  0
VERTEX
  8
0
 10
2151.294552
 20
2327.01005
 30
0.0
  0
VERTEX
  8
0
 10
2181.202677
 20
2297.138193
 30
0.0
  0
SEQEND
  8
0
  0
POLYLINE
  8
0
 66
     1
 10
0.0
 20
0.0
 30
0.0
  0
VERTEX
  8
0
 10
2138.801284
 20
2315.66631
 30
0.0
  0
VERTEX
  8
0
 10
2168.709409
 20
2285.794453
 30
0.0
  0
SEQEND
  8
0
  0
POLYLINE
  8
0
 66
     1
 10
0.0
 20
0.0
 30
0.0
  0
VERTEX
  8
0
 10
2144.15678
 20
2290.37559
 30
0.0
  0
VERTEX
  8
0
 10
2222.348891
 20
2368.472876
 30
0.0
  0
SEQEND
  8
0
  0
POLYLINE
  8
0
 66
     1
 10
0.0
 20
0.0
 30
0.0
 40
3.0
 41
3.0
  0
VERTEX
  8
0
 10
2127.618434
 20
2567.102338
 30
0.0
  0
VERTEX
  8
0
 10
2294.239426
 20
2733.521232
 30
0.0
  0
VERTEX
  8
0
 10
2527.88414
 20
2499.592782
 30
0.0
  0
VERTEX
  8
0
 10
2431.998472
 20
2403.823415
 30
0.0
  0
VERTEX
  8
0
 10
2292.438885
 20
2543.552482
 30
0.0
  0
VERTEX
  8
0
 10
2218.559748
 20
2469.762954
 30
0.0
  0
VERTEX
  8
0
 10
2126.042711
 20
2562.392342
 30
0.0
  0
VERTEX
  8
0
 10
2126.042711
 20
2562.392342
 30
0.0
  0
SEQEND
  8
0
  0
POLYLINE
  8
0
 62
     5
 66
     1
 10
0.0
 20
0.0
 30
0.0
 75
     6
  0
VERTEX
  8
0
 62
     5
 10
3583.078317
 20
1884.811271
 30
0.0
  0
VERTEX
  8
0
 62
     5
 10
3590.133927
 20
1845.613535
 30
0.0
  0
VERTEX
  8
0
 62
     5
 10
3598.552741
 20
1792.923604
 30
0.0
  0
VERTEX
  8
0
 62
     5
 10
3605.641713
 20
1740.339088
 30
0.0
  0
VERTEX
  8
0
 62
     5
 10
3610.99978
 20
1688.72439
 30
0.0
  0
VERTEX
  8
0
 62
     5
 10
3614.225878
 20
1638.943912
 30
0.0
  0
VERTEX
  8
0
 62
     5
 10
3615.028004
 20
1591.665285
 30
0.0
  0
VERTEX
  8
0
 62
     5
 10
3613.550402
 20
1546.769036
 30
0.0
  0
VERTEX
  8
0
 62
     5
 10
3610.046375
 20
1503.938921
 30
0.0
  0
VERTEX
  8
0
 62
     5
 10
3609.505943
 20
1499.731904
 30
0.0
  0
SEQEND
  8
0
 62
     5
  0
POLYLINE
  8
0
 66
     1
 10
0.0
 20
0.0
 30
0.0
  0
VERTEX
  8
0
 10
3538.445695
 20
1491.256141
 30
0.0
  0
VERTEX
  8
0
 10
3564.340452
 20
1494.950895
 30
0.0
  0
VERTEX
  8
0
 10
3623.528386
 20
1437.682112
 30
0.0
  0
VERTEX
  8
0
 10
3629.077277
 20
1409.971399
 30
0.0
  0
SEQEND
  8
0
  0
POLYLINE
  8
0
 66
     1
 10
0.0
 20
0.0
 30
0.0
  0
VERTEX
  8
0
 10
3564.340452
 20
1566.998733
 30
0.0
  0
VERTEX
  8
0
 10
3562.490822
 20
1542.982794
 30
0.0
  0
VERTEX
  8
0
 10
3632.776504
 20
1478.324483
 30
0.0
  0
VERTEX
  8
0
 10
3658.671261
 20
1478.324483
 30
0.0
  0
SEQEND
  8
0
  0
POLYLINE
  8
0
 62
     5
 66
     1
 10
0.0
 20
0.0
 30
0.0
 75
     6
  0
VERTEX
  8
0
 62
     5
 10
3360.682509
 20
3262.332428
 30
0.0
  0
VERTEX
  8
0
 62
     5
 10
3360.630647
 20
3261.944892
 30
0.0
  0
VERTEX
  8
0
 62
     5
 10
3354.167895
 20
3202.121879
 30
0.0
  0
VERTEX
  8
0
 62
     5
 10
3349.478267
 20
3144.238503
 30
0.0
  0
VERTEX
  8
0
 62
     5
 10
3349.402339
 20
3142.794186
 30
0.0
  0
SEQEND
  8
0
 62
     5
  0
POLYLINE
  8
0
 62
     5
 66
     1
 10
0.0
 20
0.0
 30
0.0
 75
     6
  0
VERTEX
  8
0
 62
     5
 10
3398.10771
 20
3299.712235
 30
0.0
  0
VERTEX
  8
0
 62
     5
 10
3393.053458
 20
3261.944892
 30
0.0
  0
VERTEX
  8
0
 62
     5
 10
3386.590707
 20
3202.121879
 30
0.0
  0
VERTEX
  8
0
 62
     5
 10
3381.901078
 20
3144.238503
 30
0.0
  0
VERTEX
  8
0
 62
     5
 10
3380.252956
 20
3112.887262
 30
0.0
  0
SEQEND
  8
0
 62
     5
  0
POLYLINE
  8
0
 66
     1
 10
0.0
 20
0.0
 30
0.0
  0
VERTEX
  8
0
 10
3332.122029
 20
3175.052627
 30
0.0
  0
VERTEX
  8
0
 10
3334.696974
 20
3157.049727
 30
0.0
  0
VERTEX
  8
0
 10
3422.24584
 20
3072.178903
 30
0.0
  0
VERTEX
  8
0
 10
3450.57048
 20
3077.3226
 30
0.0
  0
SEQEND
  8
0
  0
POLYLINE
  8
0
 66
     1
 10
0.0
 20
0.0
 30
0.0
  0
VERTEX
  8
0
 10
3303.797389
 20
3108.184704
 30
0.0
  0
VERTEX
  8
0
 10
3329.547049
 20
3110.756552
 30
0.0
  0
VERTEX
  8
0
 10
3401.646105
 20
3036.173103
 30
0.0
  0
VERTEX
  8
0
 10
3401.646105
 20
3013.026525
 30
0.0
  0
SEQEND
  8
0
  0
POLYLINE
  8
0
 66
     1
 10
0.0
 20
0.0
 30
0.0
  0
VERTEX
  8
0
 10
3329.692112
 20
3211.4569
 30
0.0
  0
VERTEX
  8
0
 10
3339.665579
 20
3241.340989
 30
0.0
  0
VERTEX
  8
0
 10
3429.426716
 20
3330.993255
 30
0.0
  0
VERTEX
  8
0
 10
3453.363037
 20
3329.000987
 30
0.0
  0
SEQEND
  8
0
  0
POLYLINE
  8
0
 66
     1
 10
0.0
 20
0.0
 30
0.0
  0
VERTEX
  8
0
 10
3307.750485
 20
3305.09372
 30
0.0
  0
VERTEX
  8
0
 10
3347.644353
 20
3297.124631
 30
0.0
  0
VERTEX
  8
0
 10
3433.416103
 20
3382.792362
 30
0.0
  0
VERTEX
  8
0
 10
3437.405489
 20
3412.67645
 30
0.0
  0
SEQEND
  8
0
  0
POLYLINE
  8
0
 66
     1
 10
0.0
 20
0.0
 30
0.0
  0
VERTEX
  8
0
 10
3550.567317
 20
1841.40851
 30
0.0
  0
VERTEX
  8
0
 10
3550.920345
 20
1852.692314
 30
0.0
  0
VERTEX
  8
0
 10
3589.755567
 20
1891.480419
 30
0.0
  0
VERTEX
  8
0
 10
3600.700056
 20
1890.422564
 30
0.0
  0
SEQEND
  8
0
  0
POLYLINE
  8
0
 66
     1
 10
0.0
 20
0.0
 30
0.0
  0
VERTEX
  8
0
 10
3533.267978
 20
1867.149701
 30
0.0
  0
VERTEX
  8
0
 10
3545.97771
 20
1865.739228
 30
0.0
  0
VERTEX
  8
0
 10
3585.16596
 20
1904.879952
 30
0.0
  0
VERTEX
  8
0
 10
3587.284232
 20
1916.516393
 30
0.0
  0
SEQEND
  8
0
  0
TEXT
  8
0
 10
3644.59827
 20
1822.098173
 30
0.0
 40
50.0
  1
RIVER
 50
275.913267
  0
TEXT
  8
0
 10
3559.625319
 20
3844.361507
 30
0.0
 40
50.0
  1
PROULX
 50
257.693097
  0
TEXT
  8
0
 10
2861.059733
 20
2253.676833
 30
0.0
 40
35.0
  1
ROUTE 69
 50
315.440215
  0
TEXT
  8
0
 10
2146.667072
 20
1428.72922
 30
0.0
 40
35.0
  1
ROUTE 66
 50
315.440215
  0
TEXT
  8
0
 10
1942.486017
 20
3599.551428
 30
0.0
 40
35.0
  1
KINGS ROAD
 50
45.034779
  0
TEXT
  8
0
 10
2793.832212
 20
2766.254464
 30
0.0
 40
35.0
  1
RR READING
 50
45.034779
  0
TEXT
  8
0
 10
2842.585525
 20
1194.491769
 30
0.0
 40
35.0
  1
ROUTE 61
 50
45.034779
  0
POLYLINE
  8
0
 66
     1
 10
0.0
 20
0.0
 30
0.0
  0
VERTEX
  8
0
 10
1941.568068
 20
204.573486
 30
0.0
  0
VERTEX
  8
0
 10
299.10996
 20
1849.026226
 30
0.0
  0
SEQEND
  8
0
  0
POLYLINE
  8
0
 66
     1
 10
0.0
 20
0.0
 30
0.0
  0
VERTEX
  8
0
 10
4176.204948
 20
2285.30959
 30
0.0
  0
VERTEX
  8
0
 10
2310.283164
 20
4153.49739
 30
0.0
  0
SEQEND
  8
0
  0
POLYLINE
  8
0
 66
     1
 10
0.0
 20
0.0
 30
0.0
  0
VERTEX
  8
0
 10
3237.657467
 20
305.25426
 30
0.0
  0
VERTEX
  8
0
 10
422.014992
 20
3124.316079
 30
0.0
  0
SEQEND
  8
0
  0
POLYLINE
  8
0
 66
     1
 10
0.0
 20
0.0
 30
0.0
  0
VERTEX
  8
0
 10
4086.81948
 20
998.832981
 30
0.0
  0
VERTEX
  8
0
 10
1025.366942
 20
4064.003372
 30
0.0
  0
SEQEND
  8
0
  0
POLYLINE
  8
0
 66
     1
 10
0.0
 20
0.0
 30
0.0
  0
VERTEX
  8
0
 10
198.551283
 20
1804.279202
 30
0.0
  0
VERTEX
  8
0
 10
3204.137902
 20
4813.515843
 30
0.0
  0
SEQEND
  8
0
  0
POLYLINE
  8
0
 66
     1
 10
0.0
 20
0.0
 30
0.0
  0
VERTEX
  8
0
 10
757.210507
 20
674.417118
 30
0.0
  0
VERTEX
  8
0
 10
3852.182594
 20
3773.147747
 30
0.0
  0
SEQEND
  8
0
  0
ENDSEC
  0
EOF
